Bajo Sueños
Rock Ecuatoriano

Letras y acordes

Letras, Acordes, Partituras y Tablaturas de la música de Bajo Sueños.

(Guitarra, bajo, piano)

Angel (letras y acordes)


Rem             Lam
Si, se que tu erés mi sol
Solm Fa
podrías tu llegar acá
La7
y alumbrar mi oscuridad

Ven mi amor te necesito aquí
si sabes tú muy bien
que solo vivo para amarte

Solm
Hasta mi vida
Fa
pierde su razón de ser
La7 Rem
no dejes pasar el tiempo amor
Solm La
porque nadie te amará como yo

Rem Do
Sin ti, nada puede ser igual
Sib Solm La
sin ti - i, todo se nubla en mi interior
Rem Do
Sin ti, nada puede ser igual
Sib Solm La
sin ti - i, ya mi luz no brillará

Rem Lam
Sé que al fin los dos
Lam
cumpliremos la ilusión
Solm Fa
de vernos siempre juntos
La7
y acabar este dolor

Ven mi amor te necesito aquí
si sabes tú muy bien
que solo vivo para amarte

Solm
Hasta mi vida
Fa
pierde su razón de ser
La7 Rem
no dejes pasar el tiempo amor
Solm La
porque nadie te amará como yo

Rem Do
Sin ti, nada puede ser igual
Sib Solm La
sin ti - i, todo se nubla en mi interior
Rem Do
Sin ti, nada puede ser igual
Sib Solm La
sin ti - i, ya mi luz no brillará

Angel (tablatura para guitarra)

Los acordes son ( Dm-Am-Gm-F-A7 )

se toca dos veces
e|-1p0----1-1-1--|-1p0-----------|-1p0----3-3-3--1-1-1--0-0-0-|
B|-----0--3-3-3--|-----0--1-1-1--|-----0--3-3-3--1-1-1--2-2-2-|
G|--------2-2-2--|--------2-2-2--|--------3-3-3--2-2-2--0-0-0-|
D|---------------|--------2-2-2--|--------5-5-5--3-3-3--2-2-2-|
A|---------------|---------------|--------5-5-5--3-3-3--------|
E|---------------|---------------|--------3-3-3--1-1-1--------|


Dm Am
Si se que tu erés mi sol
Gm F
podrías tu llegar acá
A7
y alumbrar mi oscuridad

Dm Am
Ven mi amor te necesito aquí
Gm F
si sabes tú muy bien
A7
que solo vivo para amarte

Gm
Hasta mi vida
F A7
pierde su razón de ser
Dm Gm
no dejes pasar el tiempo amor
A
porque nadie te amará como yo

En Esta parte del coro se
toca con distorsión y los acordes
son de quinta ( D5-C5-Bb5-G5-A5 )

D5 C5
Sin tiiiiii nada puede ser igual
Bb5 - G5 A5
sin ti todo se nubla en mi interior
D5 C5
Sin tiiiiii nada puede ser igual
Bb5 - G5 A5
sin ti ya mi luz no brillará

Aquí se repite una vez la introducción

Dm
Sé que al fin los dos
Am
cumpliremos la ilusión
Gm F
de vernos siempre juntos
A7
y acabar este dolor

Dm Am
Ven mi amor te necesito aquí
Gm F
si sabes tú muy bien
A7
que solo vivo para amarte

Gm
Hasta mi vida
F A7
pierde su razón de ser
Dm Gm
no dejes pasar el tiempo amor
A
porque nadie te amará como yo

Coro Con Acordes de Quinta
(D5-C5-Bb5-G5-A5)

D5 C5
Sin tiiiiii nada puede ser igual
Bb5 - G5 A5
sin ti todo se nubla en mi interior
D5 C5
Sin tiiiiii nada puede ser igual
Bb5 - G5 A5
sin ti ya mi luz no brillará

Aquí se toca el solo no he sacado todavía
pero se acompaña con estos acordes (D5-C5-Bb5-G5-A5)

D5 C5 Bb5 G5 A5
e|-------|-------|-------|-------|-------|
B|-------|-------|-------|-------|-------|
G|---7---|---5---|---3---|-------|-------|
D|---7---|---5---|---3---|---5---|---7---|
A|---5---|---3---|---1---|---5---|---7---|
E|-------|-------|-------|---3---|---5---|

Como olvidarte (tablatura para guitarra)

INTRO

G C

E -------------------11/12~------|
B -10/12~-------12~---------13~--|
G --------14p12------------------|
D -------------------------------|
A -------------------------------|
E -------------------------------|


Em D

E ------------------------------------12--10/12~--15/17p15-12-10/12~-10~--|
B -12h13-13-13-12-10----------10/12-12--12--------------------------------|
G -------------------12-11-12---------------------------------------------|
D ------------------------------------------------------------------------|
A ------------------------------------------------------------------------|
E ------------------------------------------------------------------------|


G
Quise encontrar la verdad
C
de tu cuerpo
Em
quise sonar que soy tuyo
D C
y que la lujuria sea de los dos


G
Solo quedan mil recuerdos
C
en mi soledad
Em
recuerdos que pienso olvidarlos
C D
y que la nostalgia se acabe de mi piel


C D Em
Uh como pienso en ti
C D Em
Oh ignoro cuanto llore



CORO

G D Em
/ Como olvidarte.....como
G D
como olvidarte
Em C
si el aroma de tu piel no se esfuma / x2


SOLO

G Em C D

E --------------------15-------------------------------------------------------------|
B ----------------------15---------------------------------------------17----15/17~--|
G -------12-14-14/16~-----16~--12-14h16~-14p12----12-12---12-14/16~-16----16---------|
D -12h14---------------------------------------14-------14---------------------------|
A -----------------------------------------------------------------------------------|
E -----------------------------------------------------------------------------------|


G D Em C D Em

E -12----10----------------------------------------0-----------------------------------------12--|
B -12-12-10-10--10/12--12/10------8-10-10/12p10--0-------------------------------------------12--|
G ----12----11--11/12--12/11--7/9--------------------4/2-------9-10-9h10p9----9------------------|
D --------------------------------------------------------9/10-------------10---10-9h10p9--------|
A --------------------------------------------------------------------------------------10-------|
E -----------------------------------------------------------------------------------------------|


G

E -----3--|
B -----3--|
G -----0--|
D -2-4-0--|
A -----2--|
E -----3--|



G
Puedo pensar que lo nuestro
C
no se olvidara
Em
y cenizas que el viento no lleva
D C
como debo olvidar el dolor


G
Pienso que fuiste la llama
C
en mi oscuridad
Em
y pienso que debo olvidarte
C D
que por amarte demasiadome me ignoraste

Como olvidarte (tablatura para bajo)

INTRO
G|-----------------------------------------------|
D|-----------------------------------------------|
A|------------3--0-3-3--3-3-2-2/7--7-------5~----|
E|-3--1-3-3--------------------------0-0---------|

VERSO
Quise encontrar la verdad…

---------------------------------------------------
-5-------------------------------------------------
------------3--0-3-3--3-2-3/7--7-------5--0-3-3~/5-
----1-3-3------------------------0-0---------------

--------------------------------------------------------|
-5------------------------------------------------10///-|
------------3--0-3-3--3-2-3/7--7-------3---33-5---------|
----1-3-3------------------------0-0--------------------|

PRECORO
Como pienso en ti…

----5-----7-------------------------------7--------
-----------------7-7h9-7-----------10--------------
-3-----5-----7-9---------10-9-7--------5-----7--7--
--------------------------------8------------------

-------------------|
-7-7-7-7-7-7-7-7-7-|
-------------------|
-------------------|

CORO
Como olvidarte…

-----------------------------------------------------
-----------------------------------------------------
------5-5------7/10---10/5--------5-5------7--7------
-3--1------8-7---------------3--1------8-7------8-8--

---------------------------------------------------------
---------------------------------------------------------
------5-5------7/10---10/5--------5-5------7--7------5-7-
-3--1------8-7---------------3--1------8-7------8-8------

SOLO
----------------------------------------------------------------
--------------2----(2)-------------------2----(2)------------2-4
-------5----(5)------3--5---------5----(5)------3--5--(7)-------
3----(3)-------------------3----(3)---------------------0-------

TOCAS EL CORO DOS VECES.
Si el aroma de tu piel no se esfuma.
A|-7-||

Dama imaginaria (letras y acordes)

Intro:

Dom SOL# A# Dom SOL#-LA#(2 veces)

dom sol#
Cada dia que pienso mas en ti
LA# dom SOL#-LA#
Pregunte en donde estas tu
dom SOL#
Si solo yo te encontrare
LA# dom SOL#-LA#
Y al final juntos los dos
dom SOL#
Porque siento que el sol no hara calor
LA# RE# LA#-sol#m-solm
Si aun estas dentro de mi interioooooooooooooor

Fam dom
Pienso que tu formas parte de mi
Fam RE#
Y que algun dia yo podre compartir
Solm dom
La ilusion de darte todo este amor
SOL# LA#
Y al final juntos los dos (ohoho)

(CORO):
dom SOL#
Sin tu amor, morire
LA#
Sin tu amor
RE# LA#
Solo en el mundo estare
dom SOL#
Sin tu amor, morire
LA#
Sin tu amor
RE# LA# Solm
Dama imaginaria morire......(ehehe)

(SE REPITE LOS MISMOS ACORDES):

Solamente te veo en mi ilusion
Y el llorar pensando en tu amor
Yo se bien que tu estas cerca de mi
Nuestro amor, jamas morira (ahahaha)

Fam dom
Pienso que tu formas parte de mi
Fam RE#
Y que algun dia yo podre compartir
Solm dom
La ilusion de darte todo este amor
SOL# LA#
Y al final juntos los dos (ohoho)

(CORO):

(SOLO):

FAm DOm
FAm SOL#-SOLm
DOm SOL# LA# RE# LA# SOLm

(CORO):

Porque realmente te amo
DOm…

Dama imaginaria (tablatura para bajo)

INTRO

G|--------------
D|--------------
A|-3------------
E|--------4--6--

----------------------------------------------------------
----------------------------------------------------------
-3-33-3-33-3-33-3-3---------------------------------------
--------------------4-44-4-44-4-44-4-4-6-66-6-66-6-66-6-6-


------------------|
------------------|
-3-33-3-33--------|
------------4--6--|

VERSO

Cada día que pienso más en ti…

||----------------------------------------------------------
||----------------------------------------------------------
||-3-33-3-33-3-33-3-3---------------------------------------
||--------------------4-44-4-44-4-44-4-4-6-66-6-66-6-66-6-6-

2x
------------------||
------------------||
-3-33-3-33--------||
------------4--6--||


Porque siento que el sol…

-----------------------------------------------------------
-----------------------------------------------------------
--3-33-3-33-3-33-3-3---------------------------------------
---------------------4-44-4-44-4-44-4-4-6-66-6-66-6-66-6-6-

---------------------------------|
---------------------------------|
-6-6-6-6-------------------------|
---------6-6-6-6-4-4-4-4-4-4-4-4-|

PRECORO

Pienso que tu formas parte de mí…

--------------------------------------------
-3--33-3-3-------------3--33-3-3------------
------------3--33-3-3-------------6--66-6-6-
--------------------------------------------
La ilusión de darte todo este amor…

-------------------------------------------------------------
-------------------------------------------------------------
------------3--33-3-3-------------6--66-6-6--6-6-6-6-6-6-6-6-
-3--33-3-3-------------4--44-4-4-----------------------------

CORO

Sin tu amor, moriré…

||-----------------------------------------------------------
||-----------------------------------------------------------
||--3-33-3-33-3-33-3-3---------------------------------------
||---------------------4-44-4-44-4-44-4-4-6-66-6-66-6-66-6-6-

2x
---------------------||
---------------------||
-6-66-6-66-----------||
-----------6-66-6-66-||

---------------------------------|
---------------------------------|
---------------------------------|
-3-3-3-3-3-3-3-3-3-3-3-3-3-3-3-3-|

VERSO

Solamente te veo en mi ilusión…

----------------------------------------------------------
----------------------------------------------------------
-3-33-3-33-3-33-3-3---------------------------------------
--------------------4-44-4-44-4-44-4-4-6-66-6-66-6-66-6-6-

------------------
------------------
-3-33-3-33--------
------------4--6--

Yo sé bien que tu estas…

-----------------------------------------------------------
-----------------------------------------------------------
--3-33-3-33-3-33-3-3---------------------------------------
---------------------4-44-4-44-4-44-4-4-6-66-6-66-6-66-6-6-

---------------------------------
---------------------------------
-6-6-6-6-------------------------
---------6-6-6-6-4-4-4-4-4-4-4-3-

AQUÍ TOCAS EL PRECORO Y EL CORO


SOLO
*(son 32 tocadas, por cada nota)

* *
----------------------------------------------------------------
----------------------------------------------------------------
--------------------------------33333333333333333333333333333333
11111111111111111111111111111111--------------------------------

----------------------------------------------------------------
----------------------------------------------------------------
----------------------------------------------------------------
1111111111111111111111111111111144444444444444443333333333333333

* *

-----------------------------------------------------------
-----------------------------------------------------------
--3-33-3-33-3-33-3-3---------------------------------------
---------------------4-44-4-44-4-44-4-4-6-66-6-66-6-66-6-6-

-----------------------------------------------------|
-----------------------------------------------------|
-6-66-6-66-------------------------------------------|
-----------6-66-6-66-3-3-3-3-3-3-3-3-3-3-3-3-3-3-3-3-|

TOCAS EL CORO.

Porque realmente te amo.

---||
---||
-3-||
---||

Dejame vivir (letras y acordes)

Salgo en la mañana

buscando soledad

que si llamas o no llamas

preferiria eso obviar
fa# MI
solo dime otra vez
RE
que no quieres morir
LA fa#
si no estoy junto a ti
MI
que no recordaras
RE
que esto no tiene fin
MI LA
y que no pudes vivir sin mi calor

(Coro)
RE
Dejame vivir sin tu amor
fa# MI
no atormentes mas mi pobre corazon
RE
Dejame vivir sin tu amor
fa# MI
no atormentes mucho mas mi pasion
LA
Dejame vivir.

LA
Somos como el viento

que corre en esta ciudad

un sentimiento equivocado

confunde esta verdad
fa# MI
solo dime otra vez
RE
que no quieres morir
LA fa#
si no estoy junto a ti
MI
que no recordaras
RE
que esto no tiene fin
MI LA
y que no pudes vivir sin mi calor


(Coro)
RE
Dejame vivir sin tu amor
fa# MI
no atormentes mas mi pobre corazon
RE
Dejame vivir sin tu amor
fa# MI
no atormentes mucho mas mi pasion
LA
Dejame vivir.

Donde estas (letras y acordes)

[LA-MI-FA#-SIm-RE-MI]  ''SE ESCUCHA MEJOR SI TOCA CON ARPEJIO'

LA MI FA#
Como puedo saber
SIm RE MI
el sonar esta en mi
RE MI FA#
cuando tu te vas sabes bien
RE MI FA#
que yo morire


LA MI FA#
Pienso como sera
SIm RE MI
la manana sin ti
RE MI FA#
sin el calor de tu piel supo dar
RE MI FA#
oh no como te voy a olvidar


CORO:
LA MI FA#
donde donde estas
LA MI-FA#
por que te quieres ocultar


LA MI FA#
necesito escuchar tu voz
SIm RE MI
y el recordar de tu dolor
RE MI FA#
por que te vas y no estas junto a mi
RE MI FA#
oh no porque nos fue tan mal

''LO DEMAS ES LO MISMO''

pienso como sera
la manana sin ti
si el calor de tu piel supo dar
oh no como me te voy a extranar. ''REGRESA AL CORO''

=================================================

Envenenado (letras y acordes)

D5				    A5            B5
Creo que ya llegará el momento de decirnos adios,

y lo extraño entre tu y yo,
G5 A5
es que tan solo tu quieres olvidar.

El amor que yo te entrego y el que solo
tu piel podrá probar,
y mi perfume envenando el sabor de tus labios,
como son.
No mates mis ilusiones aunque sea ocultame
la verdad,
que al saber que yo he perdido tu amor,
ya mi piel naufragará.

PRE-CORO:
C5 D5
Creo que tu piel no está
C5 D5
saciada de mi,
C5 D5
necesito una oportunidad,
C5 D5
ocultame la verdad.

D|-9-7-5-7-----------|
A|-7-5-3-5-----------|
E|-------------------|

CORO:
E5 D5
No mates, no, no, no mates,
C5 E5 D5
no mates mi corazon,
no mates, no, no, no mates,
no mates mi ilusion.

Sentimientos que logramos
que no fuera con el tiempo el amor
tantos sueños juntos que vivimos tu y yo

Y ahora ya ves,
mi amor se acabo,
y no es justo que volvamos,
por que no te olvidaré.

PRE-CORO.
SOLO.
CORO.

Envenenado (tablatura para guitarra)

Este es el solo


p - Pull off
h - Hammer on
s - Slide
v – Vibrato
b – Bend
() – Armónico Artificial





---------------------------------------------------------------------
---------------------------------------------------------------------
--17v---------------------------------------------12-14p12---17b-----
--17v---12vv--------------------------12-14-12-14--------------------
--------------------------12-14-12-14--------------------------------
-----------------15-12-15--------------------------------------------



--------------------------------------------------------15h17p15-----
-18p15---------------------------------13---------15h17----------13--
-------17--15-14h15p14-12-14—12s10—12b----12v------------------------
---------------------------------------------------------------------
---------------------------------------------------------------------
---------------------------------------------------------------------




---------------------------------------------------------------------
---------------------------------------------------------------------
----15-14h15p14-12-10-12v---10-9-------10-12b12----------------------
---------------------------------10-12-------------------------------
---------------------------------------------------------------------
---------------------------------------------------------------------



---------------------------------------------------------------------
--13h15p13p11-13----11------------13h15p13p11-13----11---------------
-----------------14----12-14-10------------------12----12-14---------
---------------------------------------------------------------------
---------------------------------------------------------------------
---------------------------------------------------------------------



---------------------------------------------------------------------
--13h15p13p11-13----11----------11s13-11v---13h15p13p11-13----11-----
-----------------14----12-14-10----------------------------14----12--
---------------------------------------------------------------------
---------------------------------------------------------------------
---------------------------------------------------------------------




---------------------------------------------------------------------
---------13h15p13p11-13----11---------13h15p13p11-13----11-----------
-14-10------------------14----12-10------------------14----12-14-10--
---------------------------------------------------------------------
---------------------------------------------------------------------
---------------------------------------------------------------------



---------------------------------------------------------------------
-11s13-11vv----------------------------------------------------------
---------------------------------------------------------------------
---------------------------------------------------------------------
---------------------------------------------------------------------
---------------------------------------------------------------------

Falsas promesas (tablatura para guitarra)

Intro
E.----------------------------------------------------------
B.----------------------------------------------------------
G.----------------------------------------------------------
D.----------------------------------------7xx5xx3x-2x2x2----
A.--------7-8--10-8--7-8-10-8--------7-8--------------------
E.-----5-5-5----------------------5-5-5---------------------

E.----------------------------------------------------------
B.----------------------------------------------------------
G.----------------------------------------9xx7xx5x-4x4x4-2--
D.----------------------------------------------------------
A.--------7-8--10-8--7-8-10-8--------7-8--------------------
E.-----5-5-5----------------------5-5-5---------------------

Este es el arpegio para entrar a la primera estrofa.

Am Dm E
E.-------------------- E.----0-------0--0- E.-----0--------0---0
B.----0---0----0----0- B.---3-3-------3--- B.------0---------0--
G.---2--2----2----2--- G.—-2---2----2--2-- G.---1---0-----1---0-
D.--2----2----2----2-- D.-0-----0--0------ D.—-2---------2------
A.-0------------------ A.----------------- A.-2-------2---------
E.-------------------- E.----------------- E.-------------------

Am
E.--------------------
B.----0---0----0----0-
G.---2--2----2----2---
D.--2----2----2----2--
A.-0------------------
E.--------------------

Este arpegio se repite hasta entrar al Pre Coro.

Am
Hace tiempo no importaba nada
Dm
solo la brisa que nos abrazaba
E Am Dm-E
y un sueño esperando realidad.

Am
Disfrutábamos falsas promesas
Dm
que ni el ocaso que las almas llevan
E Am
no pudiera hacernos separar.


Para entrar al Pre Coro hacemos lo siguiente

E.------------
B.------------
G.------------
D.-0--77-5-2--
A.-0--77-5-2--
E.-0--55-3-1--


Pre Coro:
F G-Am
Las olas suelen arrasar
Dm
aquellas frases que ahora no
E
no son verdad.

Coro:
Am F G Am F G
Se que tu ser se alejara
Am F G Am F G
se que tu ser se saciara.
Am Dm E
E.-------------------- E.----0-------0--0- E.-----0--------0---0
B.----0---0----0----0- B.---3-3-------3--- B.------0---------0--
G.---2--2----2----2--- G.—-2---2----2--2-- G.---1---0-----1---0-
D.--2----2----2----2-- D.-0-----0--0------ D.—-2---------2------
A.-0------------------ A.----------------- A.-2-------2---------
E.-------------------- E.----------------- E.-------------------


Am
E.--------------------
B.----0---0----0----0-
G.---2--2----2----2---
D.--2----2----2----2--
A.-0------------------
E.--------------------

Am
Nos cobijamos en amor intenso
Dm
y conquistamos casi el universo
E Am Dm-E
fuego su inocencia falsedad.

Am
Mi refugio siempre fueron tus brazos
Dm
y tu serás siempre mi compañera
E Am
solo esquirlas frescos de pasión.

E.------------
B.------------
G.------------
D.-0--77-5-2--
A.-0--77-5-2--
E.-0--55-3-1--

Pre Coro:
F G-Am
Las olas suelen arrasar
Dm
aquellas frases que ahora no
E
no son verdad.

Coro:
Am F G Am F G
Se que tu ser se alejara
Am F G Am F G
se que tu ser se saciara


Am F G Am F G
Se que tu ser se alejara
Am F G Am F G-Am
se que tu ser se saciara.

Solo:
E.------8--5--5h6p5----------------------------------------------
B.-/5--8----8------8-5--6h8p6-5-3-1-3-1------/5-5-5-6-8-6-5------
G.-------------------------------------2-------------------7-5---
D.------------------------------------------------------------7--
A.---------------------------------------------------------------
E.---------------------------------------------------------------

E.-5-8-10-12--10--8--15v---
B.-------------------------
G.-------------------------
D.-------------------------
A.-------------------------
E.-------------------------

Coro:

Am F G Am F G
Se que tu ser se alejara
Am F G Am F G
se que tu ser se saciara.
Am F G Am F G
Se que tu ser se alejara
Am F G Am F G-Am
se que tu ser se saciara.

En el final se repite en el intro solo que varia un poco.

E.-------------------------------------------------------------
B.-------------------------------------------------------------
G.-------------------------------------------------------------
D.----------------------------------------7xx5xx3x-2x2x2x2x2---
A.--------7-8--10-8--7-8-10-8--------7-8--------------------0--
E.-----5-5-5----------------------5-5-5------------------------

La silueta de tu sombra (letras y acordes)

INTRO


C#m B
e/------------------------------------------------------------
B/---------------5-------5-------5---------------4-----4------
G/------------6-----6-------6------6-----------4---4-----4----
D/---------6-----------6-------6-----6-------4-------4-----4--
A/------4-------------------------------4--2------------------
E/------------------------------------------------------------


F#m C#m B
e/---------------------------------------------------------2----
B/--4--------------2-----2-----2--------------5----------4---4--
G/----4----------2---2-----2-----2----------6---6------4-------4
D/------4------4-------4-----4-----4------6-------6-------------
A/--------2-----------------------------4------------2----------
E/-----------2-----------------------2--------------------------



C#m
Solo tu eres la flor que me
B
Perfuma
Fa#
Embriagandome de amor y
C#m
Matando a la vez
B
Toda ilusion


C#m
No me mires mas asi que me
B
Lastimas
Fa#
Aferrandome al dolor
C#m B
De la verdad de tu piel


verso :

A C#m
Siempre estaras en mi mente
A
Y me lamento por estar
G#
Tan lejos de tu sol


coro:
E
Ya no te puedo oir
B
Ya no te puedo volver a sentir
C#m B
La verdad es que todo se acaba (X2)

C#m A B G#
Eso lo se heeeee y heeeee Noooo



C#m
Se que es verdas que ahora
B
Estas muy lejos
Fa#
y la distancia sabes bien
C#m
Que no podra llegar a ser
B
Ausiencia
C#m B
Y la uscuridad de tu mirada
Fa#
Se deshace de ilusion toda
C#m B
Pasion de mi piel

Verso...
Coro...

La silueta de tu sombra (tablatura para guitarra)

Si tienes una guitarra eléctrica con un buen distorsionador tienes 
que tocar lo siguiente en el coro para que suene igual que la
canción:

mi SI do# SI
G|-x--9-9---4--4-4---4-x-x-6--6-6---4--4-4----
D|-2--9-9---4--4-4---4-4-7-6--6-6---4--4-4----
A|-2--7-7---2--2-2---2-4-7-4--4-4---2--2-2----
E|-0--x-x---x--x-x---x-2-5-x--x-x---x--x-x----



-Solo-

e|-------------------------------------------------9h12-9h11-7h9-
B|--------9-10-12-12-10-10-9-9-----------------------------------
G|-8-9-11----------------------11-11-9-11^-11h9h11---------------
D|---------------------------------------------------------------



e|------------------12-------------------------------------------
B|-12h9-10-9-10--------9------------------9----------------------
G|--------------11^------11h9h11---9-11-9------------------------
D|---------------------------------------------------------------

La silueta de tu sombra (tablatura para bajo)

INTRO
G|---------------------|-------------------|
D|-----------7~--------|-------------------|
A|-----4--5-3--6~-4~-2-|-------------4--2/4|
E|---------------------|--5-2--0-2-5-------|

Solo tu eres la flor que me perfumas…

-----------------------|-----------------|
-----------------------|-----------------|
-2----------------4-2-4|--4-4-3--3-2-----|
------5--2--0-2-5------|-5------5-----6-2|

Aferrándome al dolor de la verdad…

----------------------------|----------------------|
----------------7-6-4-5-6~--|----------------------|
--------5-------------------|----------------------|
--0-2-2-----4~--------------|-----2-4-3-6-2-4-4-6~5|

Ya no me puedo ir…
------------------------------|
------------------------------|
---------3-3-2---2-5-4-4-3-3-2|
-4--2-4-4-5---4-4---6-----5---|

Ya no me puedo ir…
--------------------------|--------------|
--------------------------|--------------|
---------3-3-2---2-5-4-4-3|--------------|
-2--0-1-1-5---4-4---6-----|-8-7-9-6-4-4-4|

Se que es verdad…

------------------------------------------------|
------------------------------------------------|
--------------------------------4--4-5-5-5-4-3-2|
-8--6-9-9--7--5-7-7--5-2--0-2-2-------7-----5---|

-----------------|-------------------------|
-----------------|-------------------------|
--------------5-4|-------8-7-4-5-6~--------|
-6--5-2--0-2-2---|--5~6-7-----------2-4-3-6|

Y me lamento por estar…

----------|------------------------------|
----------|------------------------------|
----------|---------3-3-2---2-5-4-4-3-2-2|
-2-4-4-6~7|-4--2-4-4-5---4-4---6-----5---|

------------------------------|
------------------------------| Esto se repite
--------3--3-2---2-5-4-4-3-3-2| 2 veces
-2-0-1-1--5---4-4---6-----5---|

Ya no me puedo ir…(fin)

-------------------------|--------|
-------------------------|--------|
--------3-3-2---2-5-4-4-3|--------|
-2-0-1-1-5---4-4---6-----|-8-6-9-5|

Nada de amor (letras y acordes)

INTRO:  
re SIb DO re LA (tocar con arpegio)

re FA re FA re FA re FA re (distorción)


re SIb
Con mi mente en blanco ya no puedo vivir
DO re LA
nada de amor, con nada en tu corazón
re SIb
Un recuerdo tuyo me hace sonreir
DO re
donde estará mi amor en tu corazón


PRECORO:

FA DO re LA
Pero recuerda que algún día yo te ame
FA DO re LA
se que tu sabes que yo nunca te fallé

CORO:
re DO
nada de amor, nada de amor
SIb DO# re LA
que aún se escucha el silencio entre tu y yo

re DO
nada de amor, nada de amor
SIb DO re LA
que aún se escucha el silencio entre tu y yo


e---------------------------------------------------
B----6/7------7----9---11---12---11---9-------------
G---------------------------------------------------
D---------------------------------------------------
A---------------------------------------------------
E---------------------------------------------------

e---------------------------------------------------
B---------------------------------------------------
G---10-9-10---9/10---9-10--12--13--11--9--7-9-10----
D---------------------------------------------------
A---------------------------------------------------
E---------------------------------------------------

re SIb
Pero ten presente que el calor que te dió mi piel
DO re LA
fue de verdad y ya no lo sentirás
re SIb
Ahora que tan lejos tu te encuentras ya de mi
DO re LA
preguntaré al pasado en que fallé


PRECORO:

FA DO re LA
Pero recuerda que algún día yo te ame
FA DO re LA
se que tu sabes que yo nunca te fallé

CORO:
re DO
nada de amor, nada de amor
SIb DO re LA
que aún se escucha el silencio entre tu y yo

re DO
nada de amor, nada de amor
SIb DO re LA
que aún se escucha el silencio entre tu y yo


e-----------------------------------------------------------------
B-10---9---7-------------------10-----9--7------------------------
G-------------9---8-----8--10---------------9---7--5--7-9-10------
D-----------------------------------------------------------------
A-----------------------------------------------------------------
E-----------------------------------------------------------------

e-----------------------------------------------------------------
B-10--9-7------------10--9-7--------------------------------------
G--------9-8---8-10----------9-7--9----7-7-7-7--8/9--7-8--7-7-7-7-
D-----------------------------------------------------------------
A-----------------------------------------------------------------
E-----------------------------------------------------------------

re DO
nada de amor, nada de amor
SIb DO re LA
que aún se escucha el silencio entre tu y yo

re DO
nada de amor, nada de amor
SIb DO re LA re
que aún se escucha el silencio entre tu y yo


ACORDES:

SIb (LA#) DO (equivalencia al normal)
e---1-----------------------3---------
B---3-----------------------5---------
G---3-----------------------5---------
D---3-----------------------5---------
A---1-----------------------3---------
E---1-----------------------3---------

Nada de amor (tablatura para guitarra)

INTRO
D
e|---------0------------------------------------------------
B|-----6-----6---6-------------------------------
G|---5---5-----5--------------------------------- X 4
D|-----------------------------------------------
A|-5------------------------------------------------
E|----------------------------------------------------
Em
e|----------0------------------------------------------
B|------8-----8----------------------------------
G|----7---7-----7-------------------------------- X 2
D|----------------0------------------------------
A|--7--------------------------------------------------
E|----------------------------------------------------
D D
e|----------0---------5v---------------------------------
B|------6-----6-------6v----------------------------------
G|----5---5-----5-----7v-----------------------------------
D|----------------0---7v---------------------------------
A|--5-----------------5v---------------------------------
E|--------------------5v--------------------------------

mientras la segunda guitarra y el bajo
hacen lo siguiente
D A# C D------
e|----------------------------------------------------
B|----------------------------------------------------
G|--7v--3-----------5--7v-----------------------------------
D|--7v--3-----------5--7v-----------------------------------
A|--5v--1-1-0---0-1-3--5v-s12--------------------------------------
E|------------3----------------------------------------
SOLO ES CUESTION DE QUE ESCUCHEN BIEN EL DISCO
Y LO ACOMODEN
D

pm....................................
e|----------------------------------------------------
B|----------------------------------------------------
G|----------------------------------------------------
D|-----7-----8-----7-----8-----7h8p7h8---------------------------
A|-5-5---5-5---5-5---5-5---5-5----------------------------------
E|----------------------------------------------------
F
e|---------------------------------------------------
B|---------------------------------------------
G|--------------------------------------------- X 4
D|-----7-----8-----7---------------------------
A|-8-8---8-8---8-8---8-8-8-7-7-7---------------------
E|---------------------------------------------------
pm...............................

esto va solamente al final(la cuarta vez)
G|-7-7-7---------------------------------
D|-7-7-7--X 3----------------------------
A|-5-5-5---------------------------------
E|--------------12s0---------------------
D A#
A.- Con mi mente en blanco ya no puedo vivir
C
nada de amor
D
con nada en tu corazón

RIFF1
D
e|---------------------------------------------------
B|---------------------------------------------------
G|-----------------------7----------------------------
D|--7--5s7s5-7--3--5--7--7--------------------------------------
A|--5--3s5s3-5--1--3--5--5--------------------------------------
E|---------------------------------------------------
D
A.-Un recuerdo tuyo me hace sonreir
A#
donde estará mi amor
fill1
en tu corazón

FILL1
pm............................
e|----------------------------------------------------
B|--------6-5vvv-------6-5vvv-----------------------------------
G|------7----------------------------------------------
D|----7--------------7----------------------------------
A|--5--------------5------------------------------------
E|-----------------------------------------------------
F C
B.-Pero recuerda
D A
que algún día yo te amé
F C
sé que tu sabes
D A
que yo nunca te fallé

CORO(X2)
D C/D
Nada de amor
C A#/C
nada de amor
A# D C E D-A
y aún se escucha el silencio entre tu y yo

SOLO 1
D A#
e|-----------5-5h6-5---------------------------------------
B|-/6vvv-6-8---------8-5h6p5---------------------------------------
G|---------------------------8=====-------------------------
D|----------------------------------------------------
C D A
e|------------5----------------------------------------
B|------5-6-8---8-6-------6======---------------------------------
G|-5vvv-------------7-5-7------------------------------------
D|----------------------------------------------------


A.-Pero ten presente...........

A.-Ahora que tan lejos..............

B.-pero recuerda.............

CORO(X2)
SOLO 2

e|----------------------------------------------------
B|-8b(10)-8-6-5---5-6-8-8b(10)-8-6-5-------5--------------------------------
G|--------------7--------------------7-5-7----------------
D|----------------------------------------------------
A|----------------------------------------------------
E|----------------------------------------------------


e|----------------------------------------------------
B|---------5-6)rapido-8b(10)-8-6-5---5-6-8b(10)-8-6-5vvv-------
G|-----5-7-------------------------7---------------------
D|(5-7--------------------------------------------------
A|----------------------------------------------------
E|----------------------------------------------------

esto la 1era guitarra
e|-----------------------5-----------------------------
B|--------6-5--------------8-6----------------------------
G|--5-7-5-----7-5--5-7-5-------7vvv-------------------------------
D|----------------------------------------------------
A|----------------------------------------------------
E|----------------------------------------------------

esto la 2da guitarra y el bajo
e|----------------------------------------------------
B|----------------------------------------------------
G|----------------------------------------------------
D|-------3--------------7-5------------------------------
A|-3-5-3---7-5-3--3-5-3-----8-7-5vvv---------------------------------
E|----------------------------------------------------

CORO 1 VEZ
D D C D
D.-Na-a-a-da de amor
C
oh nada de amor
D D
nada, nada
C A# C D
nada de amo-o-or.

CORO 1 VEZ

Y TERMINA ASI
D-D-C-D/

Nada de amor (tablatura para bajo)

INTRO 1(ARPEGIOS)

G|----|----|----|-------|----|----|----|-----
D|----|----|----|-------|----|----|----|-----
A|-5-5|-5-5|----|-------|-3-3|-3-3|-5-5|-0-0-
E|----|----|-6-6|-6-5-3-|----|----|----|-----

INTRO 2(DISTORSION)

-----------------------------------------------
-----------------------------------------------
-5---5-7-8---8--7--5---5-7-8---8-8-8-8-7-7-7-7-
-----------------------------------------------

***
2x
--------------------------------------------------------------||
--------------------------------------------------------------||
5-5-5-5-5-5-5-5-5-5-5-5-5-5-5--8-8-8-8-8-8-8-8-8-8-8-8-7-7-7-7||
--------------------------------------------------------------||

-------------------
-------------------
-5-5-5-5-5-5-5-5-5-
-------------------

VERSO

Con mi mente en blanco ya no puedo vivir…

----------------------------------------------------------------
----------------------------------------------------------------
-5-5-5-5-5-5-5-5-5-5-5-5-5-5-5-5--------------------------------
---------------------------------6-6-6-6-6-6-6-6-6-6-6-6-6-6-5-3

----------------------------------------------------------------
----------------------------------------------------------------
-3-3-3-3-3-3-3-3-3-3-3-3-3-3-3-3---5----3-5-3-5---5-3----3--5-5-
--------------------------------------6---------------6---------

----------------------------------------------------------------
----------------------------------------------------------------
-5-5-5-5-5-5-5-5-5-5-5-5-5-5-5-5--------------------------------
---------------------------------6-6-6-6-6-6-6-6-6-6-6-6-6-6-5-3
------------------------------------------------------|
------------------------------------------------------|
-3-3-3-3-3-3-3-3-3-3-3-3-3-3-3-3---5----5----5----3---|
------------------------------------------------------|

PRECORO

Pero recuerda…

--------|--------|--------|---------|
-3--3---|--------|--------|---------|
--------|-3--3---|-5--5---|---------|
--------|--------|--------|-5--5--3-|

Se que tu sabes…

--10--10---|--------|--------|------------------|
-----------|--------|--------|------------------|
-----------|-3--3---|-5--5---|------------------|
-----------|--------|--------|-5-5-5-5-5-5-5-5-5|

CORO

Nada de amor…


||-----------------------------------------------------
||----7------------7------------5------------5---------
||-5----5-7h8p7-5----5-7h8p7-3----3-5h6p5-3----3-5h6p5-
||-----------------------------------------------------

2x
------------------------------------------||
----3-3-----5-5---------------------------||
-1-------3-------5--5-5-3-0-0-0-0-0-0-0-0-||
------------------------------------------||

1ER “SOLO”

----------------------------------------------------------------
----------------------------------------------------------------
-5-5-5-5-5-5-5-5-5-5-5-5-5-5-5-5--------------------------------
---------------------------------6-6-6-6-6-6-6-6-6-6-6-6-6-6-6-6

----------------------------------------------------------------
----------------------------------------------------------------
-3-3-3-3-3-3-3-3-3-3-3-3-3-3-3-3-5-5-5-5-5-5-5-5----------------
-------------------------------------------------5-5-5-5-5-5-5-5

DESPUES TOCAS EL VERSO, PRECORO Y CORO.

2DO “SOLO”
---------------------------------------------------------------|
---------------------------------------------------------------|
5-5-5-5-5-5-5-5-5-5-5-5-5-5-5-5-3-3-3-3-3-3-3-3-3-3-3-3-3-3-3-3|
---------------------------------------------------------------|
--------------------------------------------------2------------|
------------------------------------------------2---5-3-2-0-000|
5-5-5-5-5-5-5-5-5-5-5-5-5-5-5-5-3-3-3-3-3-3-3-3----------------|
---------------------------------------------------------------|

CORO FINAL

---------------------------------------------------------
---------------------------------------------------------
-5--5-5--5-5-5-5--5-5--5-5-5-3--3-3--3-3-3-3--3-3--3-3-3-
---------------------------------------------------------

-------------------------------------------------------------
-------------------------------------------------------------
---------------3--3-3--3-3-3-5-5-5-5-5-5-5-5-0-0-0-0-0-0-0-0-
-6--6-6--6-6-6-----------------------------------------------

----------------------------------------------------------------
----------------------------------------------------------------
-5-5-5-5-5-5-5-5-5-5-5-5-5-5-5-5-3-3-3-3-3-3-3-3-3-3-3-3-3-3-3-3
----------------------------------------------------------------

----------------------------------------------------------------
----------------------------------------------------------------
-5-5-5-5-5-5-5-5-5-5-5-5-5-5-5-5-3-3-3-3-3-3-3-3-3-3-3-3-3-3-3-3
----------------------------------------------------------------

----------------------------------------------------------------
----------------------------------------------------------------
-5-5-5-5-5-5-5-5-5-5-5-5-5-5-5-5-3-3-3-3-3-3-3-3-3-3-3-3-3-3-3-3
----------------------------------------------------------------

----------------------------------------------------------------
----------------------------------------------------------------
-----------------3-3-3-3-3-3-3-3-5-5-5-5-5-5-5-5-5-5-5-5-5-5-5-5
-6-6-6-6-6-6-6-6------------------------------------------------

----------||
----------||
-5-5-3-5--||
----------||

Otoño (letras y acordes)

Cdis= Do normal pero suelta la segunda cuerda


Em C D
Creo que he perdido la razón
Em Cdis D
ya es otro otoño sin tu amor
Em Cdis D
no sé que hacer, para salir de este camino
Em Cdis D
blancas colinas rosas rojas y una espina

Am G
Lu-una
Am
deja de salir ya
G A
deja decir que...

Em D C
Solo, solo,solo
G A
pasioooón

Em Cdis D
Creo que estoy aferrado a ti
Em Cdis D
ya no hay manera de saliiiiiiir
Em Cdis D
no sé para donde mirar

Am G
Lu-una
Am
deja de salir ya
G A
deja decir que...

Em D C
Solo, solo,solo
G A
pasioooón.

Otoño (tablatura para bajo)

INTRO:


e---------------------------------------------------------2----------
B------------------0-------------------------1---------3-----3-------
G---------------0----0-------------------0---------2-----------2----
D------------2--------- 2------0------2---------0-----------------0
A------- -2------------------0------3--------------------------------
E----0----------------------------------------------------------------


e---------------------------------------------------------------------2-
B--------------------0---------------------------------1-----------3-----
G----------------0-------0-------------------------0-----------2--------
D------------2---------------2---------0------2------------0------------
A------- -2-------------------------0-------3----------------------------
E----0--------------------------------------------------------------------


e---------------------------------------------------------2----------
B------------------0-------------------------1---------3-----3-------
G---------------0----0-------------------0---------2-----------2----
D------------2--------- 2------0------2---------0-----------------0
A------- -2------------------0------3--------------------------------
E----0----------------------------------------------------------------


e-----------------------------------------------------------------2-
B--------------------0---------------------------------1----------3-
G----------------0-------0-------------------------0--------------2-
D------------2---------------2---------0------2-------------------0-
A------- -2-------------------------0-------3-----------------------
E----0--------------------------------------------------------------

Se puede Tocar toda la canción con este arpegio

Refugiate (letras y acordes)

F
se que estas mirando lejos
C Dm G7
en soledad, no quieres naufragar
F C
suave seda derunvada, por entregar
Dm G7
sus besos hacia el mar
A# F
te juraste no erir mas nada de tu miel
C Dm D7
olvidaste cosas del aye.......er
coro:
G D
refugiate en mi ser
G D
ocultate en mi piel
G D
bebamos del placer
G D
agamos un eden .

nota:
El resto de la cancion tiene las mismas notas

Refugiate (tablatura para guitarra)

INTRO

Fa Do

E -----------------------------------13/15~-|
B ---------------------13/15~/13-13~--------|
G -------10----12/14~-----------------------|
D -10h12----12------------------------------|
A ------------------------------------------|
E ------------------------------------------|


Rem Sol

E -13-12-12-13-12-10---------------------|
B -------------------------------10/12~--|
G -------------------12/14/12-10---------|
D ---------------------------------------|
A ---------------------------------------|
E ---------------------------------------|



Fa Do
Se que estas mirando lejooooos
Rem
en soledad
Sol
no quieres naufragar


Fa Do
??????????????????????????????
Rem
por entregar
Sol
sus besos hacia el mar


La# Fa
Te juraste no herir mas nada de tu miel
Do Rem Re7
olvidaste cosas del ayeeeeeeeer


Sol Re
Refugiate en mi ser
Mim Re
ocultate en mi piel
Sol Re
hagamos un Eden
Mim Re
bebamos el placer


SOLO

Fa Do Rem

E --------------------------------------------------------------------|
B ---------------------13/15~/13-13~-----------11/13~-11-10h11p10-----|
G -------10----12/14~----------------10-9h10p9------------------------|
D -10h12----12----------------------------------------------------12--|
A --------------------------------------------------------------------|
E --------------------------------------------------------------------|


Sol

E -------------------------------------------------------------|
B -----------------------------10/12~-12h13p12h13p12h13p12h13--|
G -------10----12/14~-14/12-10---------------------------------|
D -10h12----12-------------------------------------------------|
A -------------------------------------------------------------|
E -------------------------------------------------------------|



Fa Do
??????????????????????????????
Rem
siento su luz
Sol
imaginandote


Fa Do
Dulce diosa de la nocheeeeee
Rem
rescatame
Sol
dibujame a placer


La# Fa
Te juraste no herir mas nada de tu miel
Do Rem Re7
olvidaste cosas del ayeeeeeeeer


Sol Re
Refugiate en mi ser
Mim Re
ocultate en mi piel
Sol Re
hagamos un Eden
Mim Re
bebamos el placer


Sol Re
Refugiate en mi ser
Mim Do
ocultate en mi piel



Las partes que tienen ?????? son las faltantes, tratare de conseguir las
notas... paciencia!

Solo tu, solo yo (letras y acordes)

Este tema se escucha mejor con arpejio al comienso de la cancion

sim>>>>>>La>>>>>Sol>>>>>>Fa#m>>>>> Dos veses

sim La Sol fa#m sim
Pienso que ya nada puede ser igual
La Sol
La verdad es que siento
fa#m sim,La,sil,fa#m sim
Que no estas,..............aqui

sim La Sol
Fuego que calientas
fa#m sim
Con tu piel, y
La Sol fa#m sim
Encantado siento que yo estoy
la,sol,fa#M sim
..................contigo

verso:

Re
Dejame ver que solos
la
Tu y yo
Re la
Podremos descubrir la verdad del amor
sim la
Solo tu, solo yo

coro::
re
Dejame ver
fa#m sim
Que tu estas aqui conmigo
La
Conmigo......''repite el coro''


Sim la
Yo no se
sol fa#m sim
Si vamos a cumplir
la sol fa#m
El deseo que tenemos
sim
Tu y yo


sim la sol
Fuego que calientas
fa#m sim
Con tu piel,y
la sol fam
Encantado siento que yo estoy
sim
Contigo.........'''regreso al verso y el coro


Soñandote (tablatura para guitarra)

Intro: Em – C – Em - D – Em – C – Bm – A

(En la mitad de la nota D tiene un arreglo en las 2 primeras cuerdas)
e|-----3-3-5---||
B|--3-5-5---5--||

(Se repite todo esto 2 veces)


B C#m B F#m
En este momento tu rostro se pierde lento
B C#m G#m A
Mataste al marchar de nuestro sueño… y te quiero

(notas que acompañan a este solo)

Em – C – Bm – A

e|--10/12-12-10-8--7-5-5-3/5-3----5-7-8-7-5-3---------||
B|----------------------------7-7-------------5-7-8---||


B C#m
Hoy quisiera pensar que es solo un sueño gris
B F#m B
Y engañarle a mi piel que aun estás (estas) conmigo
C#m G#m A
Pero el frio recuerda que hoy no estás y te vas, te vas

Em C
Hoy me dejas caer
Em D
Me dejas soñándote
Em C
No me dejes caer
Bm A
No sobreviviré

(notas que acompañan a este solo)

B - C#m - B - F#m
B - C#m - G#m - A

e|----------------------------------------------------------
B|--—-------------------------------------------------------
G|--8-8-9-9-8--8/13-13-11-13-13-11-13--8-8-9-9-8--8/11-9/11-


e|----9-11-12--14-16-19--19-16-14-16-16-14-------------
B|-12--------------------------------------14-16-16-14-
G|-----------------------------------------------------

e|-------------------------||
B|----12/14--14-15-16-17---||
G|-16----------------------||


Em C
Hoy me dejas caer
Em D
Me dejas soñándote
Em C
No me dejes caer
Bm A
No sobreviviré… (2 Veces)


Em C Em D
Soñándote… yo viviré
Em C Bm A
Soñándote… no me dejes caer… (Esto hasta el final)

Tuyo (tablatura para guitarra)

INTRO  X2


----5-7-8-7-8---5-7-8-7-5---5-7-8-7-5---5-7-8-7-5---5-7-8-7-5---5-7-8
--5-----------5-----------5-----------5-----------6-----------6------
---------------------------------------------------------------------
---------------------------------------------------------------------
---------------------------------------------------------------------
---------------------------------------------------------------------


-7-5---5-7-8-7-5---5-7-8-7-5---7-8-10-8-7---7-8-10-8-7---7-8-10-7-8--
-----6-----------6-----------8------------8------------8------------8
---------------------------------------------------------------------
---------------------------------------------------------------------
---------------------------------------------------------------------
---------------------------------------------------------------------


-7-8-10-8-7---5-7-8-7-5---5-7-8-10-12-17-12-13----12-----------------
------------5-----------5----------------------15----13-15p13-10p12--
---------------------------------------------------------------------
---------------------------------------------------------------------
---------------------------------------------------------------------
---------------------------------------------------------------------



---------------------------------------------------------------------
-8h10v---------------------------------------------------------------
---------------------------------------------------------------------
---------------------------------------------------------------------
---------------------------------------------------------------------
---------------------------------------------------------------------

Am F

Pienso que vienes y no estas y al final estoy solo

G C

Y me doy cuenta que tu eres la dueña de mi soledad

E Am

Pienso que todo el amor que en mis sueños te pude entregar

G C

Son solo ilusiones que se borran al despertar

E Am

Si habrá un lugar donde solo yo te pueda amar

F G

Donde el resto del mundo no nos pueda hallar



------------------------------------
------------------------------------
---------------2--------------------
-----------2-3---5-3-2--------------
-----2-3-5--------------5-3---------
-3-5--------------------------------

C G G-G-G#-Am F G

Tuyo, tuyo, este amor que al final no te puede dejar

C G G-G-G#-Am F G

Tuyo, tuyo, este amor que al final no te puede dejar


----5-7-8-7-8---5-7-8-7-5---5-7-8-7-5---5-7-8-7-5---5-7-8-7-5---5-7-8
--5-----------5-----------5-----------5-----------6-----------6------
---------------------------------------------------------------------
---------------------------------------------------------------------
---------------------------------------------------------------------
---------------------------------------------------------------------


-7-5---5-7-8-7-5---5-7-8-7-5---7-8-10-8-7---7-8-10-8-7---7-8-10-7-8--
-----6-----------6-----------8------------8------------8------------8
---------------------------------------------------------------------
---------------------------------------------------------------------
---------------------------------------------------------------------
---------------------------------------------------------------------


-7-8-10-8-7---5-7-8-7-5---5-7-8-10-12-17-12-13----12-----------------
------------5-----------5----------------------15----13-15p13-10p12--
---------------------------------------------------------------------
---------------------------------------------------------------------
---------------------------------------------------------------------
---------------------------------------------------------------------



---------------------------------------------------------------------
-8h10v---------------------------------------------------------------
---------------------------------------------------------------------
---------------------------------------------------------------------
---------------------------------------------------------------------
---------------------------------------------------------------------

SOLO 1

---------------------------------------------------------------------
-12s17v—----17b17-12-13-15-------------------------------------------
------------------------------------------------------------7--------
-----------------------------12s14-15-17---10-9-7----7-9-10---10-9-7-
---------------------------------------------------------------------
---------------------------------------------------------------------

---------------------------------------------------------------------
---------------------------------------------------------------------
------7-------------7-9-10-12-10-9-----------12h14-12h14p12-10-7-----
-9-10---10-9-7-9-10----------------12-10-9---------------------------
---------------------------------------------------------------------
---------------------------------------------------------------------





----------------------------------------------------------------------
----------------------------------------------------------------------
------------12---------12-------12------------------------------------
------12-------12-12-----12-12----------5-6-7v------------------------
----------------------------------------------------------------------
----------------------------------------------------------------------


*Aquí con las mismas notas de la estrofa anterior y luego el coro

Quiero que estés a mi lado y que sientas mi alma
Y Yo quiero darte el calor que soñaste una vez
Solo con vos llegare a vivir en mi mundo ideal
No habrá quien sumerja el eco de mi ansiedad
Que consuma las ganas de poder besarte
Y solo los dos nos podemos amar

Tuyo, tuyo, este amor que al final no te puede dejar
Tuyo, tuyo, este amor que al final no te puede dejar



SOLO 2



----------------------15---------------------------------------------
-17b—17vv---------15b-----15b—15p13—15vv-----10s13-13-13-13-13-13-13-
---------------------------------------------------------------------
---------------------------------------------------------------------
---------------------------------------------------------------------
---------------------------------------------------------------------

---------------------------------------------------------------------
-13p10v------10-12-13---15b-----15p13—15vv---------------------------
----------12---------------------------------------------------------
---------------------------------------------------------------------
---------------------------------------------------------------------
---------------------------------------------------------------------

----------------------15---------------------------------------------
-17b—17vv---------15b-----15b—15p13—15vv-----10s13-13-13-13-13-13-13-
---------------------------------------------------------------------
---------------------------------------------------------------------
---------------------------------------------------------------------
---------------------------------------------------------------------

---------------------------------------------------------------------
-13p10v------10-12-13---15b-----15p13—15vv---------------------------
----------12---------------------------------------------------------
---------------------------------------------------------------------
---------------------------------------------------------------------
---------------------------------------------------------------------

FINAL

E – F – G - Am

Escuchanos!


Videos recientes

3054 views - 0 comments
2716 views - 8 comments

BS en Reverbnation


BAJO%20SUE%C3%91OS